Početna stranicaPortalCalendarGalleryFAQPretraľnikČlanstvoKorisničke grupeRegistracijaLogin

Share | 
 

 Tabs

Go down 
Autor/icaPoruka
Sorc
Webmaster level
Webmaster level
avatar


PostajNaslov: Tabs   ned oľu 15, 2009 1:33 pm

Ovdje stavljajte tablature za pjesme za bass gitaru.

Black Sabbath - Paranoid


Guitar intro X2

Intro
G|--------------7-9-----7-9-----------7-9-----7-9-|
D|----------7-9-----7-9-----------7-9-----7-9-----|
A|-2/7-7-7------------------7-7-7-----------------|
E|------------------------------------------------|

Verse 1
G|----------------------------------------------------|
D|-------------------------------------------5------5-|
A|-7-7-7-7-7-7-7-7-7-7-7-7-7-5-5-5-5-5-5-5-5---5-7----|X2
E|----------------------------------------------------|
'Finished with my woman....'

Break 1
G|---------------------5-----7---------------------------------|
D|-------------------5-----7-----------------------------------|
A|-7-7-7-7-7-7-7-7-3-----5-----7-7-7-7-7-7-7-7-7-7-7-7-7-7-7-7-|X2
E|-------------------------------------------------------------|

Verse 2
G|----------------------------------------------------|
D|-------------------------------------------5------5-|
A|-7-7-7-7-7-7-7-7-7-7-7-7-7-5-5-5-5-5-5-5-5---5-7----|
E|----------------------------------------------------|
'All day long I think of things.....'

G|----------------------------------------------------|
D|-------------------0-2---------------------5------5-|
A|-7-7-7-7-7-7-7-7-7-----0-2-5-5-5-5-5-5-5-5---5-7----|
E|----------------------------------------------------|
'Think i lose my mind...

Break 2
G|---9---9---9---9---9---9---9---9---7---7---7---7---7---7---7---7-|
D|-----------------------------------------------------------------|
A|-7---7---7---7---7---7---7---7---5---5---5---5---5---5---5---5---|X2
E|-----------------------------------------------------------------|
'Can you help me... occupy my brain...'

Verse 3
G|----------------------------------------------------|
D|-------------------------------------------5------5-|
A|-7-7-7-7-7-7-7-7-7-7-7-7-7-5-5-5-5-5-5-5-5---5-7----|X2
E|----------------------------------------------------|

G|----------------------------------------------------|
D|-------------------0-2---------------------5------5-|
A|-7-7-7-7-7-7-7-7-7-----0-2-5-5-5-5-5-5-5-5---5-7----|X2
E|----------------------------------------------------|
'I need someone to show me...'

Solo

G|----------------------------------------------------|
D|-------------------------------------------5------5-|
A|-7-7-7-7-7-7-7-7-7-7-7-7-7-5-5-5-5-5-5-5-5---5-7----|X4
E|----------------------------------------------------|

G|----------------------------------------------------|
D|-------------------0-2---------------------5------5-|
A|-7-7-7-7-7-7-7-7-7-----0-2-5-5-5-5-5-5-5-5---5-7----|X2
E|----------------------------------------------------|

Verse 4

G|----------------------------------------------------|
D|-------------------------------------------5------5-|
A|-7-7-7-7-7-7-7-7-7-7-7-7-7-5-5-5-5-5-5-5-5---5-7----|X2
E|----------------------------------------------------|
'Make a joke and i will sigh....'

Break 3

G|---------------------5-----7---------------------------------|
D|-------------------5-----7-----------------------------------|
A|-7-7-7-7-7-7-7-7-3-----5-----7-7-7-7-7-7-7-7-7-7-7-7-7-7-7-7-|X2
E|-------------------------------------------------------------|

Verse 5

G|----------------------------------------------------|
D|-------------------0-2---------------------5------5-|
A|-7-7-7-7-7-7-7-7-7-----0-2-5-5-5-5-5-5-5-5---5-7----|X2
E|----------------------------------------------------|
'And so as you hear these words....'

Outro

G|----------------------------------------------------|
D|-------------------------------------------5------5-|
A|-7-7-7-7-7-7-7-7-7-7-7-7-7-5-5-5-5-5-5-5-5---5-7----|
E|----------------------------------------------------|

G|-------------------------------------------------|
D|-------------------0-2---------------------5-----|
A|-7-7-7-7-7-7-7-7-7-----0-2-5-5-5-5-5-5-5-5---5-7-|
E|-------------------------------------------------|
[Vrh] Go down
Korisnički profil
 
Tabs
[Vrh] 
Stranica 1 / 1.

Permissions in this forum:Ne moľeą odgovarati na postove.
 :: Glazbeni instrumenti :: Bass Gitare-
Forum(o)Bir: